  0
SECTION
  2
HEADER
  9
$ACADVER
  1
AC1009
  9
$DWGCODEPAGE
  3
ansi_1252
  9
$INSBASE
 10
0.0
 20
0.0
 30
0.0
  9
$EXTMIN
 10
0.0
 20
0.0
 30
0.0
  9
$EXTMAX
 10
6.0
 20
3.0
 30
0.0
  9
$LIMMIN
 10
0.0
 20
0.0
  9
$LIMMAX
 10
12.0
 20
9.0
  9
$ORTHOMODE
 70
     0
  9
$REGENMODE
 70
     1
  9
$FILLMODE
 70
     1
  9
$QTEXTMODE
 70
     0
  9
$MIRRTEXT
 70
     1
  9
$DRAGMODE
 70
     2
  9
$LTSCALE
 40
1.0
  9
$OSMODE
 70
    37
  9
$ATTMODE
 70
     1
  9
$TEXTSIZE
 40
0.2
  9
$TRACEWID
 40
0.05
  9
$TEXTSTYLE
  7
STANDARD
  9
$CLAYER
  8
OUTLINE
  9
$CELTYPE
  6
BYLAYER
  9
$CECOLOR
 62
   256
  9
$DIMSCALE
 40
1.0
  9
$DIMASZ
 40
0.18
  9
$DIMEXO
 40
0.0625
  9
$DIMDLI
 40
0.38
  9
$DIMRND
 40
0.0
  9
$DIMDLE
 40
0.0
  9
$DIMEXE
 40
0.18
  9
$DIMTP
 40
0.0
  9
$DIMTM
 40
0.0
  9
$DIMTXT
 40
0.18
  9
$DIMCEN
 40
0.09
  9
$DIMTSZ
 40
0.0
  9
$DIMTOL
 70
     0
  9
$DIMLIM
 70
     0
  9
$DIMTIH
 70
     1
  9
$DIMTOH
 70
     1
  9
$DIMSE1
 70
     0
  9
$DIMSE2
 70
     0
  9
$DIMTAD
 70
     0
  9
$DIMZIN
 70
     0
  9
$DIMBLK
  1

  9
$DIMASO
 70
     1
  9
$DIMSHO
 70
     1
  9
$DIMPOST
  1

  9
$DIMAPOST
  1

  9
$DIMALT
 70
     0
  9
$DIMALTD
 70
     2
  9
$DIMALTF
 40
25.4
  9
$DIMLFAC
 40
1.0
  9
$DIMTOFL
 70
     0
  9
$DIMTVP
 40
0.0
  9
$DIMTIX
 70
     0
  9
$DIMSOXD
 70
     0
  9
$DIMSAH
 70
     0
  9
$DIMBLK1
  1

  9
$DIMBLK2
  1

  9
$DIMSTYLE
  2
STANDARD
  9
$DIMCLRD
 70
     0
  9
$DIMCLRE
 70
     0
  9
$DIMCLRT
 70
     0
  9
$DIMTFAC
 40
1.0
  9
$DIMGAP
 40
0.09
  9
$LUNITS
 70
     2
  9
$LUPREC
 70
     4
  9
$SKETCHINC
 40
0.1
  9
$FILLETRAD
 40
0.5
  9
$AUNITS
 70
     0
  9
$AUPREC
 70
     0
  9
$MENU
  1
.
  9
$ELEVATION
 40
0.0
  9
$PELEVATION
 40
0.0
  9
$THICKNESS
 40
0.0
  9
$LIMCHECK
 70
     0
  9
$CHAMFERA
 40
0.5
  9
$CHAMFERB
 40
0.5
  9
$SKPOLY
 70
     0
  9
$TDCREATE
 40
2454451.726039502
  9
$TDUPDATE
 40
2454451.726039514
  9
$TDINDWG
 40
0.0000000116
  9
$TDUSRTIMER
 40
0.0000000116
  9
$USRTIMER
 70
     1
  9
$ANGBASE
 50
0.0
  9
$ANGDIR
 70
     0
  9
$PDMODE
 70
     0
  9
$PDSIZE
 40
0.0
  9
$PLINEWID
 40
0.0
  9
$COORDS
 70
     1
  9
$SPLFRAME
 70
     0
  9
$SPLINETYPE
 70
     6
  9
$SPLINESEGS
 70
     8
  9
$ATTDIA
 70
     0
  9
$ATTREQ
 70
     1
  9
$HANDLING
 70
     1
  9
$HANDSEED
  5
7E
  9
$SURFTAB1
 70
     6
  9
$SURFTAB2
 70
     6
  9
$SURFTYPE
 70
     6
  9
$SURFU
 70
     6
  9
$SURFV
 70
     6
  9
$UCSNAME
  2

  9
$UCSORG
 10
0.0
 20
0.0
 30
0.0
  9
$UCSXDIR
 10
1.0
 20
0.0
 30
0.0
  9
$UCSYDIR
 10
0.0
 20
1.0
 30
0.0
  9
$PUCSNAME
  2

  9
$PUCSORG
 10
0.0
 20
0.0
 30
0.0
  9
$PUCSXDIR
 10
1.0
 20
0.0
 30
0.0
  9
$PUCSYDIR
 10
0.0
 20
1.0
 30
0.0
  9
$USERI1
 70
     0
  9
$USERI2
 70
     0
  9
$USERI3
 70
     0
  9
$USERI4
 70
     0
  9
$USERI5
 70
     0
  9
$USERR1
 40
0.0
  9
$USERR2
 40
0.0
  9
$USERR3
 40
0.0
  9
$USERR4
 40
0.0
  9
$USERR5
 40
0.0
  9
$WORLDVIEW
 70
     1
  9
$SHADEDGE
 70
     3
  9
$SHADEDIF
 70
    70
  9
$TILEMODE
 70
     1
  9
$MAXACTVP
 70
    64
  9
$PLIMCHECK
 70
     0
  9
$PEXTMIN
 10
1.000000000000000E+20
 20
1.000000000000000E+20
 30
1.000000000000000E+20
  9
$PEXTMAX
 10
-1.000000000000000E+20
 20
-1.000000000000000E+20
 30
-1.000000000000000E+20
  9
$PLIMMIN
 10
0.0
 20
0.0
  9
$PLIMMAX
 10
12.0
 20
9.0
  9
$UNITMODE
 70
     0
  9
$VISRETAIN
 70
     1
  9
$PLINEGEN
 70
     0
  9
$PSLTSCALE
 70
     1
  0
ENDSEC
  0
SECTION
  2
TABLES
  0
TABLE
  2
VPORT
 70
     2
  0
VPORT
  2
*ACTIVE
 70
     0
 10
0.0
 20
0.0
 11
1.0
 21
1.0
 12
3.0
 22
1.5
 13
0.0
 23
0.0
 14
0.5
 24
0.5
 15
0.5
 25
0.5
 16
0.0
 26
0.0
 36
1.0
 17
0.0
 27
0.0
 37
0.0
 40
3.7500375
 41
1.6
 42
50.0
 43
0.0
 44
0.0
 50
0.0
 51
0.0
 71
     0
 72
   100
 73
     1
 74
     3
 75
     0
 76
     0
 77
     0
 78
     0
  0
ENDTAB
  0
TABLE
  2
LTYPE
 70
     1
  0
LTYPE
  2
CONTINUOUS
 70
     0
  3
Solid line
 72
    65
 73
     0
 40
0.0
  0
ENDTAB
  0
TABLE
  2
LAYER
 70
     4
  0
LAYER
  2
0
 70
     0
 62
     7
  6
CONTINUOUS
  0
LAYER
  2
DRILL-1065
 70
     0
 62
     5
  6
CONTINUOUS
  0
LAYER
  2
OUTLINE
 70
     0
 62
     1
  6
CONTINUOUS
  0
LAYER
  2
MATERIAL
 70
     0
 62
    98
  6
CONTINUOUS
  0
ENDTAB
  0
TABLE
  2
STYLE
 70
     1
  0
STYLE
  2
STANDARD
 70
     0
 40
0.0
 41
1.0
 50
0.0
 71
     0
 42
0.2
  3
txt
  4

  0
ENDTAB
  0
TABLE
  2
VIEW
 70
     0
  0
ENDTAB
  0
TABLE
  2
UCS
 70
     0
  0
ENDTAB
  0
TABLE
  2
APPID
 70
     1
  0
APPID
  2
ACAD
 70
     0
  0
ENDTAB
  0
TABLE
  2
DIMSTYLE
 70
     1
  0
DIMSTYLE
  2
STANDARD
 70
     0
  3

  4

  5

  6

  7

 40
1.0
 41
0.18
 42
0.0625
 43
0.38
 44
0.18
 45
0.0
 46
0.0
 47
0.0
 48
0.0
140
0.18
141
0.09
142
0.0
143
25.4
144
1.0
145
0.0
146
1.0
147
0.09
 71
     0
 72
     0
 73
     1
 74
     1
 75
     0
 76
     0
 77
     0
 78
     0
170
     0
171
     2
172
     0
173
     0
174
     0
175
     0
176
     0
177
     0
178
     0
  0
ENDTAB
  0
ENDSEC
  0
SECTION
  2
BLOCKS
  0
BLOCK
  8
0
  2
$MODEL_SPACE
 70
     0
 10
0.0
 20
0.0
 30
0.0
  3
$MODEL_SPACE
  1

  0
ENDBLK
  5
21
  8
0
  0
BLOCK
 67
     1
  8
0
  2
$PAPER_SPACE
 70
     0
 10
0.0
 20
0.0
 30
0.0
  3
$PAPER_SPACE
  1

  0
ENDBLK
  5
1D
 67
     1
  8
0
  0
BLOCK
  8
0
  2
$PAPER_SPACE0
 70
     0
 10
0.0
 20
0.0
 30
0.0
  3
$PAPER_SPACE0
  1

  0
ENDBLK
  5
25
  8
0
  0
ENDSEC
  0
SECTION
  2
ENTITIES
  0
CIRCLE
  5
2B
  8
DRILL-1065
 10
3.475
 20
2.25
 30
0.0
 40
0.05325
  0
CIRCLE
  5
2C
  8
DRILL-1065
 10
3.475
 20
0.75
 30
0.0
 40
0.05325
  0
POLYLINE
  5
2E
  8
OUTLINE
 66
     1
 10
0.0
 20
0.0
 30
0.0
  0
VERTEX
  5
30
  8
OUTLINE
 10
3.368933982838882
 20
0.8560660171948467
 30
0.0
 42
0.6681786379767972
  0
VERTEX
  5
31
  8
OUTLINE
 10
3.475
 20
0.6000000000000001
 30
0.0
  0
VERTEX
  5
32
  8
OUTLINE
 10
4.225
 20
0.6000000000000001
 30
0.0
  0
VERTEX
  5
33
  8
OUTLINE
 10
4.225
 20
2.4
 30
0.0
  0
VERTEX
  5
34
  8
OUTLINE
 10
3.475
 20
2.4
 30
0.0
 42
0.6681786379162548
  0
VERTEX
  5
35
  8
OUTLINE
 10
3.368933982822904
 20
2.143933982821132
 30
0.0
  0
VERTEX
  5
36
  8
OUTLINE
 10
3.68106595303974
 20
1.831802012604276
 30
0.0
 42
-0.1989125245362843
  0
VERTEX
  5
37
  8
OUTLINE
 10
3.725
 20
1.725735931288071
 30
0.0
  0
VERTEX
  5
38
  8
OUTLINE
 10
3.725
 20
1.274264068711929
 30
0.0
 42
-0.1989122106648328
  0
VERTEX
  5
39
  8
OUTLINE
 10
3.681065953220051
 20
1.168197987576034
 30
0.0
  0
VERTEX
  5
3A
  8
OUTLINE
 10
3.368933982838882
 20
0.8560660171948467
 30
0.0
  0
SEQEND
  5
2F
  8
OUTLINE
  0
POLYLINE
  5
3B
  8
OUTLINE
 66
     1
 10
0.0
 20
0.0
 30
0.0
  0
VERTEX
  5
3D
  8
OUTLINE
 10
5.231066017161118
 20
2.143933982805153
 30
0.0
 42
0.6681786379767907
  0
VERTEX
  5
3E
  8
OUTLINE
 10
5.125
 20
2.4
 30
0.0
  0
VERTEX
  5
3F
  8
OUTLINE
 10
4.375
 20
2.4
 30
0.0
  0
VERTEX
  5
40
  8
OUTLINE
 10
4.375
 20
0.6000000000000001
 30
0.0
  0
VERTEX
  5
41
  8
OUTLINE
 10
5.125
 20
0.5999999999999995
 30
0.0
 42
0.6681786379162487
  0
VERTEX
  5
42
  8
OUTLINE
 10
5.231066017177096
 20
0.8560660171788681
 30
0.0
  0
VERTEX
  5
43
  8
OUTLINE
 10
4.918934046960258
 20
1.168197987395724
 30
0.0
 42
-0.198912524536282
  0
VERTEX
  5
44
  8
OUTLINE
 10
4.875
 20
1.274264068711928
 30
0.0
  0
VERTEX
  5
45
  8
OUTLINE
 10
4.875
 20
1.725735931288071
 30
0.0
 42
-0.1989122106648327
  0
VERTEX
  5
46
  8
OUTLINE
 10
4.918934046779949
 20
1.831802012423966
 30
0.0
  0
VERTEX
  5
47
  8
OUTLINE
 10
5.231066017161117
 20
2.143933982805153
 30
0.0
  0
SEQEND
  5
3C
  8
OUTLINE
  0
CIRCLE
  5
48
  8
DRILL-1065
 10
5.125
 20
2.25
 30
0.0
 40
0.05325
  0
CIRCLE
  5
49
  8
DRILL-1065
 10
5.125
 20
0.75
 30
0.0
 40
0.05325
  0
CIRCLE
  5
4A
  8
DRILL-1065
 10
2.525
 20
0.75
 30
0.0
 40
0.05325
  0
CIRCLE
  5
4B
  8
DRILL-1065
 10
2.525
 20
2.25
 30
0.0
 40
0.05325
  0
POLYLINE
  5
4C
  8
OUTLINE
 66
     1
 10
0.0
 20
0.0
 30
0.0
  0
VERTEX
  5
4E
  8
OUTLINE
 10
2.631066017161118
 20
2.143933982805153
 30
0.0
 42
0.668178637976795
  0
VERTEX
  5
4F
  8
OUTLINE
 10
2.525
 20
2.4
 30
0.0
  0
VERTEX
  5
50
  8
OUTLINE
 10
1.775000000000001
 20
2.4
 30
0.0
  0
VERTEX
  5
51
  8
OUTLINE
 10
1.775
 20
0.6000000000000001
 30
0.0
  0
VERTEX
  5
52
  8
OUTLINE
 10
2.525
 20
0.6000000000000003
 30
0.0
 42
0.6681786379162573
  0
VERTEX
  5
53
  8
OUTLINE
 10
2.631066017177096
 20
0.8560660171788681
 30
0.0
  0
VERTEX
  5
54
  8
OUTLINE
 10
2.318934046960259
 20
1.168197987395724
 30
0.0
 42
-0.1989125245362879
  0
VERTEX
  5
55
  8
OUTLINE
 10
2.275
 20
1.274264068711928
 30
0.0
  0
VERTEX
  5
56
  8
OUTLINE
 10
2.275
 20
1.725735931288071
 30
0.0
 42
-0.1989122106648353
  0
VERTEX
  5
57
  8
OUTLINE
 10
2.318934046779949
 20
1.831802012423966
 30
0.0
  0
VERTEX
  5
58
  8
OUTLINE
 10
2.631066017161118
 20
2.143933982805153
 30
0.0
  0
SEQEND
  5
4D
  8
OUTLINE
  0
POLYLINE
  5
59
  8
OUTLINE
 66
     1
 10
0.0
 20
0.0
 30
0.0
  0
VERTEX
  5
5B
  8
OUTLINE
 10
0.7689339828388822
 20
0.8560660171948467
 30
0.0
 42
0.6681786379767956
  0
VERTEX
  5
5C
  8
OUTLINE
 10
0.875
 20
0.6000000000000001
 30
0.0
  0
VERTEX
  5
5D
  8
OUTLINE
 10
1.625
 20
0.6000000000000001
 30
0.0
  0
VERTEX
  5
5E
  8
OUTLINE
 10
1.625
 20
2.4
 30
0.0
  0
VERTEX
  5
5F
  8
OUTLINE
 10
0.8750000000000002
 20
2.4
 30
0.0
 42
0.6681786379162549
  0
VERTEX
  5
60
  8
OUTLINE
 10
0.768933982822904
 20
2.143933982821132
 30
0.0
  0
VERTEX
  5
61
  8
OUTLINE
 10
1.08106595303974
 20
1.831802012604276
 30
0.0
 42
-0.1989125245362871
  0
VERTEX
  5
62
  8
OUTLINE
 10
1.125
 20
1.725735931288071
 30
0.0
  0
VERTEX
  5
63
  8
OUTLINE
 10
1.125
 20
1.274264068711929
 30
0.0
 42
-0.1989122106648332
  0
VERTEX
  5
64
  8
OUTLINE
 10
1.081065953220051
 20
1.168197987576034
 30
0.0
  0
VERTEX
  5
65
  8
OUTLINE
 10
0.7689339828388824
 20
0.8560660171948467
 30
0.0
  0
SEQEND
  5
5A
  8
OUTLINE
  0
CIRCLE
  5
66
  8
DRILL-1065
 10
0.875
 20
0.75
 30
0.0
 40
0.05325
  0
CIRCLE
  5
67
  8
DRILL-1065
 10
0.875
 20
2.25
 30
0.0
 40
0.05325
  0
POLYLINE
  5
69
  8
MATERIAL
 66
     1
 10
0.0
 20
0.0
 30
0.0
  0
VERTEX
  5
6B
  8
MATERIAL
 10
0.0
 20
0.0
 30
0.0
  0
VERTEX
  5
6C
  8
MATERIAL
 10
6.0
 20
0.0
 30
0.0
  0
VERTEX
  5
6D
  8
MATERIAL
 10
6.0
 20
3.0
 30
0.0
  0
VERTEX
  5
6E
  8
MATERIAL
 10
0.0
 20
3.0
 30
0.0
  0
VERTEX
  5
6F
  8
MATERIAL
 10
0.0
 20
0.0
 30
0.0
  0
SEQEND
  5
6A
  8
MATERIAL
  0
CIRCLE
  5
70
  8
DRILL-1065
 10
1.438
 20
2.25
 30
0.0
 40
0.05325
  0
CIRCLE
  5
71
  8
DRILL-1065
 10
1.438
 20
0.75
 30
0.0
 40
0.05325
  0
CIRCLE
  5
72
  8
DRILL-1065
 10
4.037999999999999
 20
0.75
 30
0.0
 40
0.05325
  0
CIRCLE
  5
73
  8
DRILL-1065
 10
4.037999999999999
 20
2.25
 30
0.0
 40
0.05325
  0
CIRCLE
  5
74
  8
DRILL-1065
 10
1.962
 20
2.25
 30
0.0
 40
0.05325
  0
CIRCLE
  5
75
  8
DRILL-1065
 10
1.962
 20
0.75
 30
0.0
 40
0.05325
  0
CIRCLE
  5
76
  8
DRILL-1065
 10
4.562
 20
0.75
 30
0.0
 40
0.05325
  0
CIRCLE
  5
77
  8
DRILL-1065
 10
4.562
 20
2.25
 30
0.0
 40
0.05325
  0
ENDSEC
  0
EOF
